Lawi (lawi_chan) wrote,
Lawi
lawi_chan

  • Music:

Eden Yasu's solo Tabs

                              
 I don't know if i mention this on my Eden chords entry (it's always useful to look at them if you want to play this XD) but I finally manage to make Yasu's solo after watching their Shounen Club Premium performance..... maybe there are some variations but you can add all the beauty you want XD

So for those interested in letting their Rock side come out... here they are.... Maybe in a near future I'll be able to make the chords he uses....

Useful notes....

r = let ring
/ = slide
h = apply hammer
p = pull off

EDEN

I'll add some parts with chords so that we don't get lost XD

Intro has two batches...

(First) Em Dsus2 F#m Cmaj7 Em Dsus2 F#m Cmaj7

while the Second batch is being played.... play
          Em       Dsus2      F#m    Cmaj7      Em       Dsus2      F#m       Cmaj7
e|-----10--------------10r---10--------------|-----10--------------10r---10-----10/12-12-12r----| let 12 ring
B|-----------8---7--8-------------8--7r-------|-----------8---7--8------------8----------------------|
G|-----------------------------------------------|--------------------------------------------------------|
D|-----------------------------------------------|--------------------------------------------------------|    
A|------------------------------------------------|-------------------------------------------------------|
E|-----------------------------------------------|--------------------------------------------------------|

Here come the verses, refrain and the chorus.....
So right when the chorus ends there's are some chords between it (the chorus) and BaRyo's bridge right?... play

      Am                                  C                    G                                  D
e|--7/8---7--------------------------------------7/8-7-----------------------------------------|
B|------------10---8r--8h10p8--7--------------------10---8r---7---8---10r--10--10r--|
G|----------------------------------------9--7r---------------------------------------------------|
D|----------------------------------------------------------------------------------------------|
A|-----------------------------------------------------------------------------------------------|
E|-----------------------------------------------------------------------------------------------|

        Am                                  C                    Em                               B7                                  *Em =Right here
e|--7/8---7--------------------------------------7/8--7----------------------------7---10----15--14---12r---|
B|------------10---8r--8h10p8--7--------------------10---8r---7---8---10----------------------------------|
G|-----------------------------------------9--7r----------------------------------------------------------------------|
D|-----------------------------------------------------------------------------------------------------------------|
A|------------------------------------------------------------------------------------------------------------------|
E|------------------------------------------------------------------------------------------------------------------|

*right when you play that last 12, the bridge should be starting with Em

Play Baru/Ryo bridge... ends of bridge XD
Is acoustuc guitar solo chords playing.... the same chords as the chorus 2 times before the last Yasu solo starts like this:
G  Cadd9 Em D
G  Cadd9 Em D
Let this last D ring... aaaaand Yasu's last Solo Staato!! XD

e|--10--10/15-15-15r--15-15-14-14-12r----------------------------------------------------------------12------12--15/17-17r--|
B|-----------------------------------------------------15--12h13p12--10--8--8/10-12-13-12-13-15------15----------------------|
G|---------------------------------------------------------------------------------------------------------------------------------------------|
D|---------------------------------------------------------------------------------------------------------------------------------------------|
A|----------------------------------------------------------------------------------------------------------------------------------------------|
E|---------------------------------------------------------------------------------------------------------------------------------------------|

Chorus again....
and if you would like to finish SCP style.. XD ... like Baru small solo XD while the acoustic plays Cadd9

play: press the same strings for Cadd9 too
                                                                     Cadd9
e|---3------3r-------3------3r-------3------3r-------3---|
B|----3-----------------3---------------3------------3---|
G|------0-----------------0---------------0----------0---|  This last chord (Cadd9) strumming: down-up-down-up (stop)
D|----------------------------------------------------2---|
A|-----------------------------------------------------3---|
E|----------------------------------------------------0---|

And that's it

I don't really think this is necesary but... if posting elsewhere... do give me credits ne? <3

Songs to post:
Stereo: I have most of Stero ready, but I'm not sure when will I post it... I might have it ready soon....
Potential: the same happens with Potential... Ryo puts so many words in one line.. it's hard yo XD... 
Ashita: It's really short I almost have it ready too
Hoshi wo mezashite: I'm working on this one believe it or not.. sugee deshou??? XD

Let's see which one I finish first.....

Tags: eden, guitar tabs, kajani8
Subscribe

  • Post a new comment

    Error

    default userpic
    When you submit the form an invisible reCAPTCHA check will be performed.
    You must follow the Privacy Policy and Google Terms of use.
  • 10 comments