Lawi (lawi_chan) wrote,
Lawi
lawi_chan

  • Music:

[Guitar Tabs] Chiisana Koi No Uta - MONGOL800_SUBARUBAND (cover)

also... there some liiittle request..
But here I give you....

Chiisana Koi no Uta... Guitat Tabs and Lyrics
Finally made it..... Well I guess this is only for those who are interested... but I do have a request



This song is from MONGOL800, but Kanjani8 fans should know by now that SubaruBAND performed it in Okinawa. So I'm not only sharing the tabs for those who know guitar... but.. also I want to request the audio of SubaruBAND


Please please please... if there's someone who has the mp3 rip of SubaruBAND singing MONPACHI's Chiisanan koi no uta... I would loooove to have it and I would really really appreaciate it!!

This are my first actual guitar tabs, since I don't know how to put them on chords... so yeah XD
I like this song I really really do!!
BTW.... all three numbers should be lined.. but html keep rolling them *pouts*

1rst Verse
e|-----------------------------------------------------------------------------------|
B|-----------------------------------------------------------------------------------|
G|-------------8xxx----9xxx--------------9xxx--------------11xxx----13xxx----|
D|----9xxx----8xxx----9xxx----9xxx----9xxx----9xxx----11xxx----13xxx----|
A|----9xxx----6xxx----7xxx----9xxx----7xxx-----9xxx----9xxx----11xxx----|
E|----7xxx-------------------------7xxx--------------7xxx-------------------------|
hiroi uchuu no......
                                                             
e|-----------------------------------------------------------------------------------------|
B|-----------------------------------------------------------------------------------------|
G|--------------8xxx----9xxx--------------9xxx-------------11xxx----13x----11----|
D|----9xxx----8xxx----9xxx----9xxx----9xxx----9xxx----11xxx----13x----11----|
A|----9xxx----6xxx----7xxx----9xxx----7xxx----9xxx----9xxx----11x-----9-----|
E|----7xxx-------------------------7xxx-------------7xxx-------------------------------|
chiisana koi no omoi wa todoku .....

*__* (here you the strumming is: down, down, down-up-down-up... for each ehmmm chord? XD)


e|------------------------------------------------------------|
B|------------------------------------------------------------|
G|-----------8-----9------------9-----------11-----13----|
D|----9-----8-----9-----9-----9-----9-----11-----13----|   x2
A|----9-----6-----7-----9-----7-----9------9-----11----|
E|----7------------------7------------7--------------------|
anata to deai toki.......
itsushika futari tagai ni hibiku.....


e|-----------------------------------------------------------------------|
B|-----------------------------------------------------------------------|
G|----8-----9-----11-----13-----8-----9-----11------------11----|
D|----8-----9-----11-----13-----8-----9-----11-----9/-----11----|
A|----6-----7------9------11-----6-----7------9------9/-----9-----|
E|--------------------------------------------------------7/-------------|
hibiku ha tooku haruka

*__*

CHORUS
e|--------------------------------------------------------------|
B|--------------------------------------------------------------|
G|----9-----11-----13-----8-----9------------11-----------|
D|----9-----11-----13-----8-----9-----9-----11-----9----|  x2
A|----7------9------11-----6-----7-----9------9-----9-----|
E|-----------------------------------------7-------------7-----|
hora anata ni totte.....
tada anata ni dake.....

e|--------------------------------------------------------------------------------------------|
B|--------------------------------------------------------------------------------------------|
G|----9---11----13----8----9---11---13---8---9---11---13---8---9---11---------|
D|----9---11----13----8----9---11---13---8---9---11---13---8---9---11----9---|
A|----7----9-----11----6----7----9---11----6----7---9---11----6---7----9----9---|
E|-----------------------------------------------------------------------------------------7----|
hora hora .......

*__*

2nd Verse (for the first sentence/phrase "anata ha kidzuku..." strum twice for each then just like before)
e|------------------------------------------------------------|
B|------------------------------------------------------------|
G|-----------8-----9------------9-----------11-----13----|
D|----9-----8-----9-----9-----9-----9-----11-----13----|   x3
A|----9-----6-----7-----9-----7-----9------9-----11----|
E|----7------------------7------------7--------------------|
anata ha kidzuku....
nigirishimeta te.....
eien no ......

e|------------------------------------------------------|
B|------------------------------------------------------|
G|----8----9----11----13----8----9----11--------|
D|----8----9----11----13----8----9----11---9----|
A|----6----7-----9----11----6----7-----9----9----|
E|------------------------------------------------7----|
soredemo...

e|-------------------------------------|
B|-------------------------------------|
G|--11----------11----------11----|
D|--11----9----11----9/----11----|
A|---9-----9----9-----9/-----9------|
E|---------7-----------7/-------------|
tada dakishimeru ...

*__*


CHORUS
e|--------------------------------------------------------------|
B|--------------------------------------------------------------|
G|----9-----11-----13-----8-----9------------11-----------|
D|----9-----11-----13-----8-----9-----9-----11-----9----|  x2
A|----7------9------11-----6-----7-----9------9-----9-----|
E|-----------------------------------------7-------------7-----|
hora anata ni totte.....
tada anata ni dake.....

e|--------------------------------------------------------------------------------------------|
B|--------------------------------------------------------------------------------------------|
G|----9---11----13----8----9---11---13---8---9---11---13---8---9---11---------|
D|----9---11----13----8----9---11---13---8---9---11---13---8---9---11----9---|
A|----7----9-----11----6----7----9---11----6----7---9---11----6---7----9----9---|
E|----------------------------------------------------------------------------------------7----|
hora hora .......


*__*

      Bridge
e|----------------------------|
B|----------------------------|
G|----9----------9----------|
D|----9----9----9----9----|
A|----7----9----7----9----|
E|---------7----------7----|
yume naraba semenai.....

e|--------------------------------------------------|
B|--------------------------------------------------|
G|----9----11----13----8----9----------11----|
D|----9----11----13----8----9----9----11----|
A|----7-----9----11----6----7-----9-----9-----|
E|--------------------------------------7------------|
anata to sugoshita....

*__*

CHORUS
e|--------------------------------------------------------------|
B|--------------------------------------------------------------|
G|----9-----11-----13-----8-----9------------11-----------|
D|----9-----11-----13-----8-----9-----9-----11-----9----|  x4
A|----7------9------11-----6-----7-----9------9-----9-----|
E|-----------------------------------------7-------------7-----|
hora anata ni totte.....
tada anata ni dake.....

e|--------------------------------------------------------------------------------------------|
B|--------------------------------------------------------------------------------------------|
G|----9---11----13----8----9---11---13---8---9---11---13---8---9---11---------|
D|----9---11----13----8----9---11---13---8---9---11---13---8---9---11----9---|
A|----7----9-----11----6----7----9---11----6----7---9---11----6---7----9----9---|
E|----------------------------------------------------------------------------------------7----|
hora hora .......


Notes!!!
| /  slide up
| x  Mute note


Chiisana Koi no Uta - MONGOL800 (Lyrics)

hiroi uchuu no kazu aru hitotsu
aoi chikyuu no hiroi sekai de
chiisana koi no omoi wa todoku
chiisana shima no anata no moto e
anata to deai toki ha nagareru
omoi wo kometa tegami mo fueru
itsushika futari tagai ni hibiku
toki ni hageshiku toki ni setsunaku
hibiku ha tooku haruka kanata e 
yasashii uta ha sekai wo kaeru

(Chorus)
hora anata ni totte daiji na hito hodo
sugu soba ni iru no
tada anata ni dake todoite hoshii
hibike koi no uta
hora hora hora hibike koi no uta

anata ha kidzuku futari ha aruku
kurai michi demo hibi terasu tsuki
nigirishimeta te hanasu koto naku
omoi ha tsuyoku eien chikau
eien no hanawa kitto boku ha iu
omoi kawarazu onaji kotoba wo
soredemo tarizu namida ni kawari yorokobi ni nari
kotoba ni dekizu tada dakishimeru tada dakishimeru

(Chorus)
hora anata ni totte daiji na hito hodo
sugu soba ni iru no
tada anata ni dake todoite hoshii
hibike koi no uta
hora hora hora hibike koi no uta

(Bridge)
yume naraba semenai de yume naraba semenai de
anata to sugoshita toki eien no hoshi to naru

(Chorus)
hora anata ni totte daiji na hito hodo
sugu soba ni iru no
tada anata ni dake todoite hoshii
hibike koi no uta

hora anata ni totte daiji na hito hodo
sugu soba ni iru no
tada anata ni dake todoite hoshii
hibike koi no uta
hora hora hora hibike koi no uta

Fin


Request: Already asked up there.. but still... If anyone has the rip of the concert where SubaruBAND performed this song... I know some had the Birthday one and Shimanchi nu takara... so I guess there most be someone who has this one aswell!! Please

Tags: chiisana koi no uta, guitar tabs, k8, lyrics, mongol800, request, subaruband
Subscribe

  • Post a new comment

    Error

    default userpic
    When you submit the form an invisible reCAPTCHA check will be performed.
    You must follow the Privacy Policy and Google Terms of use.
  • 6 comments